ISO-10303-21;
HEADER;
/* Generated by software containing ST-Developer
 * from STEP Tools, Inc. (www.steptools.com) 
 */

FILE_DESCRIPTION(
/* description */ (''),
/* implementation_level */ '2;1');

FILE_NAME(
/* name */ '',
/* time_stamp */ '2025-07-24T11:44:09+07:00',
/* author */ ('zeta-86'),
/* organization */ (''),
/* preprocessor_version */ 'ST-DEVELOPER v19.2',
/* originating_system */ 'Autodesk Inventor 2024',
/* authorisation */ '');

FILE_SCHEMA (('AUTOMOTIVE_DESIGN { 1 0 10303 214 3 1 1 }'));
ENDSEC;

DATA;
#10=MECHANICAL_DESIGN_GEOMETRIC_PRESENTATION_REPRESENTATION('',(#13),#476);
#11=SHAPE_REPRESENTATION_RELATIONSHIP('SRR','None',#483,#12);
#12=ADVANCED_BREP_SHAPE_REPRESENTATION('',(#14),#475);
#13=STYLED_ITEM('',(#492),#14);
#14=MANIFOLD_SOLID_BREP('\X2\04220432043504400434043E0435\X0\ \X2\04420435043B043E\X0\2',
#221);
#15=TOROIDAL_SURFACE('',#274,29.95,1.25);
#16=(
BOUNDED_CURVE()
B_SPLINE_CURVE(2,(#468,#469,#470),.UNSPECIFIED.,.F.,.F.)
B_SPLINE_CURVE_WITH_KNOTS((3,3),(1.36532477767167,1.47739728573998),
 .UNSPECIFIED.)
CURVE()
GEOMETRIC_REPRESENTATION_ITEM()
RATIONAL_B_SPLINE_CURVE((1.,0.997381228419591,0.997900229948732))
REPRESENTATION_ITEM('')
);
#17=(
BOUNDED_SURFACE()
B_SPLINE_SURFACE(2,2,((#441,#442,#443,#444,#445,#446,#447,#448,#449),(#450,
#451,#452,#453,#454,#455,#456,#457,#458),(#459,#460,#461,#462,#463,#464,
#465,#466,#467)),.UNSPECIFIED.,.F.,.T.,.F.)
B_SPLINE_SURFACE_WITH_KNOTS((3,3),(3,2,2,2,3),(1.36532477767167,1.55239521828522),
(-3.14159265358979,-1.5707963267949,0.,1.5707963267949,3.14159265358979),
 .UNSPECIFIED.)
GEOMETRIC_REPRESENTATION_ITEM()
RATIONAL_B_SPLINE_SURFACE(((1.,0.707106781186548,1.,0.707106781186548,1.,
0.707106781186548,1.,0.707106781186548,1.),(0.995628769607665,0.704015854533999,
0.995628769607665,0.704015854533999,0.995628769607665,0.704015854533999,
0.995628769607665,0.704015854533999,0.995628769607665),(1.,0.707106781186548,
1.,0.707106781186548,1.,0.707106781186548,1.,0.707106781186548,1.)))
REPRESENTATION_ITEM('')
SURFACE()
);
#18=CONICAL_SURFACE('',#260,26.75,0.785398163397441);
#19=CONICAL_SURFACE('',#264,29.175,0.78539816339745);
#20=CONICAL_SURFACE('',#270,29.175,0.785398163397446);
#21=B_SPLINE_CURVE_WITH_KNOTS('',3,(#370,#371,#372,#373,#374,#375,#376,
#377,#378,#379,#380,#381,#382,#383),.UNSPECIFIED.,.F.,.F.,(4,2,2,2,2,2,
4),(-50.3866260773155,-49.8454875937759,-49.4614319063407,-49.0773762189055,
-48.6933205314703,-48.3092648440351,-47.7681263604991),.UNSPECIFIED.);
#22=B_SPLINE_CURVE_WITH_KNOTS('',3,(#388,#389,#390,#391,#392,#393,#394,
#395,#396,#397,#398,#399,#400,#401),.UNSPECIFIED.,.F.,.F.,(4,2,2,2,2,2,
4),(47.7681263604991,48.3092648440352,48.6933205314703,49.0773762189055,
49.4614319063406,49.8454875937757,50.3866260773155),.UNSPECIFIED.);
#23=B_SPLINE_CURVE_WITH_KNOTS('',3,(#405,#406,#407,#408),.UNSPECIFIED.,
 .F.,.F.,(4,4),(7.07103275167152,7.17923376575261),.UNSPECIFIED.);
#24=B_SPLINE_CURVE_WITH_KNOTS('',3,(#410,#411,#412,#413),.UNSPECIFIED.,
 .F.,.F.,(4,4),(7.17923376575261,7.28721099946743),.UNSPECIFIED.);
#25=LINE('',#363,#31);
#26=LINE('',#416,#32);
#27=LINE('',#425,#33);
#28=LINE('',#432,#34);
#29=LINE('',#434,#35);
#30=LINE('',#440,#36);
#31=VECTOR('',#294,28.7);
#32=VECTOR('',#313,26.75);
#33=VECTOR('',#324,29.175);
#34=VECTOR('',#333,29.65);
#35=VECTOR('',#336,29.175);
#36=VECTOR('',#343,32.);
#37=CYLINDRICAL_SURFACE('',#249,28.7);
#38=CYLINDRICAL_SURFACE('',#258,51.9374737228912);
#39=CYLINDRICAL_SURFACE('',#267,29.65);
#40=CYLINDRICAL_SURFACE('',#271,32.);
#41=FACE_BOUND('',#58,.T.);
#42=FACE_BOUND('',#66,.T.);
#43=FACE_OUTER_BOUND('',#57,.T.);
#44=FACE_OUTER_BOUND('',#59,.T.);
#45=FACE_OUTER_BOUND('',#60,.T.);
#46=FACE_OUTER_BOUND('',#61,.T.);
#47=FACE_OUTER_BOUND('',#62,.T.);
#48=FACE_OUTER_BOUND('',#63,.T.);
#49=FACE_OUTER_BOUND('',#64,.T.);
#50=FACE_OUTER_BOUND('',#65,.T.);
#51=FACE_OUTER_BOUND('',#67,.T.);
#52=FACE_OUTER_BOUND('',#68,.T.);
#53=FACE_OUTER_BOUND('',#69,.T.);
#54=FACE_OUTER_BOUND('',#70,.T.);
#55=FACE_OUTER_BOUND('',#71,.T.);
#56=FACE_OUTER_BOUND('',#72,.T.);
#57=EDGE_LOOP('',(#142));
#58=EDGE_LOOP('',(#143));
#59=EDGE_LOOP('',(#144));
#60=EDGE_LOOP('',(#145,#146,#147,#148,#149,#150));
#61=EDGE_LOOP('',(#151,#152));
#62=EDGE_LOOP('',(#153,#154));
#63=EDGE_LOOP('',(#155,#156,#157,#158,#159));
#64=EDGE_LOOP('',(#160,#161,#162,#163));
#65=EDGE_LOOP('',(#164));
#66=EDGE_LOOP('',(#165));
#67=EDGE_LOOP('',(#166,#167,#168,#169,#170));
#68=EDGE_LOOP('',(#171,#172,#173,#174,#175,#176));
#69=EDGE_LOOP('',(#177,#178,#179,#180,#181,#182));
#70=EDGE_LOOP('',(#183,#184,#185,#186,#187));
#71=EDGE_LOOP('',(#188,#189,#190,#191,#192,#193,#194,#195,#196));
#72=EDGE_LOOP('',(#197,#198,#199,#200,#201));
#73=CIRCLE('',#245,32.);
#74=CIRCLE('',#246,31.1161903789691);
#75=CIRCLE('',#248,26.5);
#76=CIRCLE('',#250,28.7);
#77=CIRCLE('',#251,28.7);
#78=CIRCLE('',#252,28.7);
#79=CIRCLE('',#253,28.7);
#80=CIRCLE('',#255,51.9374737228912);
#81=CIRCLE('',#257,51.9374737228912);
#82=CIRCLE('',#259,50.494368204125);
#83=CIRCLE('',#261,27.);
#84=CIRCLE('',#263,28.7);
#85=CIRCLE('',#265,29.65);
#86=CIRCLE('',#266,29.65);
#87=CIRCLE('',#268,29.65);
#88=CIRCLE('',#269,29.65);
#89=CIRCLE('',#272,32.);
#90=CIRCLE('',#273,32.);
#91=CIRCLE('',#275,1.25);
#92=VERTEX_POINT('',#350);
#93=VERTEX_POINT('',#352);
#94=VERTEX_POINT('',#355);
#95=VERTEX_POINT('',#358);
#96=VERTEX_POINT('',#359);
#97=VERTEX_POINT('',#362);
#98=VERTEX_POINT('',#364);
#99=VERTEX_POINT('',#368);
#100=VERTEX_POINT('',#369);
#101=VERTEX_POINT('',#386);
#102=VERTEX_POINT('',#387);
#103=VERTEX_POINT('',#404);
#104=VERTEX_POINT('',#415);
#105=VERTEX_POINT('',#419);
#106=VERTEX_POINT('',#422);
#107=VERTEX_POINT('',#423);
#108=VERTEX_POINT('',#428);
#109=VERTEX_POINT('',#429);
#110=VERTEX_POINT('',#436);
#111=VERTEX_POINT('',#437);
#112=EDGE_CURVE('',#92,#92,#73,.T.);
#113=EDGE_CURVE('',#93,#93,#74,.T.);
#114=EDGE_CURVE('',#94,#94,#75,.T.);
#115=EDGE_CURVE('',#95,#96,#76,.T.);
#116=EDGE_CURVE('',#96,#95,#77,.T.);
#117=EDGE_CURVE('',#96,#97,#25,.T.);
#118=EDGE_CURVE('',#97,#98,#78,.T.);
#119=EDGE_CURVE('',#98,#97,#79,.T.);
#120=EDGE_CURVE('',#99,#100,#21,.T.);
#121=EDGE_CURVE('',#100,#99,#80,.T.);
#122=EDGE_CURVE('',#101,#102,#22,.T.);
#123=EDGE_CURVE('',#102,#101,#81,.T.);
#124=EDGE_CURVE('',#102,#103,#23,.T.);
#125=EDGE_CURVE('',#100,#101,#82,.T.);
#126=EDGE_CURVE('',#103,#99,#24,.T.);
#127=EDGE_CURVE('',#94,#104,#26,.T.);
#128=EDGE_CURVE('',#104,#104,#83,.T.);
#129=EDGE_CURVE('',#105,#105,#84,.T.);
#130=EDGE_CURVE('',#106,#107,#85,.T.);
#131=EDGE_CURVE('',#107,#105,#27,.T.);
#132=EDGE_CURVE('',#107,#106,#86,.T.);
#133=EDGE_CURVE('',#108,#109,#87,.T.);
#134=EDGE_CURVE('',#109,#108,#88,.T.);
#135=EDGE_CURVE('',#109,#106,#28,.T.);
#136=EDGE_CURVE('',#108,#98,#29,.T.);
#137=EDGE_CURVE('',#110,#111,#89,.T.);
#138=EDGE_CURVE('',#111,#110,#90,.T.);
#139=EDGE_CURVE('',#111,#92,#30,.T.);
#140=EDGE_CURVE('',#110,#103,#16,.T.);
#141=EDGE_CURVE('',#95,#93,#91,.T.);
#142=ORIENTED_EDGE('',*,*,#112,.F.);
#143=ORIENTED_EDGE('',*,*,#113,.T.);
#144=ORIENTED_EDGE('',*,*,#114,.F.);
#145=ORIENTED_EDGE('',*,*,#115,.F.);
#146=ORIENTED_EDGE('',*,*,#116,.F.);
#147=ORIENTED_EDGE('',*,*,#117,.T.);
#148=ORIENTED_EDGE('',*,*,#118,.T.);
#149=ORIENTED_EDGE('',*,*,#119,.T.);
#150=ORIENTED_EDGE('',*,*,#117,.F.);
#151=ORIENTED_EDGE('',*,*,#120,.F.);
#152=ORIENTED_EDGE('',*,*,#121,.F.);
#153=ORIENTED_EDGE('',*,*,#122,.F.);
#154=ORIENTED_EDGE('',*,*,#123,.F.);
#155=ORIENTED_EDGE('',*,*,#124,.F.);
#156=ORIENTED_EDGE('',*,*,#123,.T.);
#157=ORIENTED_EDGE('',*,*,#125,.F.);
#158=ORIENTED_EDGE('',*,*,#121,.T.);
#159=ORIENTED_EDGE('',*,*,#126,.F.);
#160=ORIENTED_EDGE('',*,*,#114,.T.);
#161=ORIENTED_EDGE('',*,*,#127,.T.);
#162=ORIENTED_EDGE('',*,*,#128,.T.);
#163=ORIENTED_EDGE('',*,*,#127,.F.);
#164=ORIENTED_EDGE('',*,*,#129,.F.);
#165=ORIENTED_EDGE('',*,*,#128,.F.);
#166=ORIENTED_EDGE('',*,*,#130,.T.);
#167=ORIENTED_EDGE('',*,*,#131,.T.);
#168=ORIENTED_EDGE('',*,*,#129,.T.);
#169=ORIENTED_EDGE('',*,*,#131,.F.);
#170=ORIENTED_EDGE('',*,*,#132,.T.);
#171=ORIENTED_EDGE('',*,*,#133,.F.);
#172=ORIENTED_EDGE('',*,*,#134,.F.);
#173=ORIENTED_EDGE('',*,*,#135,.T.);
#174=ORIENTED_EDGE('',*,*,#132,.F.);
#175=ORIENTED_EDGE('',*,*,#130,.F.);
#176=ORIENTED_EDGE('',*,*,#135,.F.);
#177=ORIENTED_EDGE('',*,*,#133,.T.);
#178=ORIENTED_EDGE('',*,*,#134,.T.);
#179=ORIENTED_EDGE('',*,*,#136,.T.);
#180=ORIENTED_EDGE('',*,*,#118,.F.);
#181=ORIENTED_EDGE('',*,*,#119,.F.);
#182=ORIENTED_EDGE('',*,*,#136,.F.);
#183=ORIENTED_EDGE('',*,*,#137,.F.);
#184=ORIENTED_EDGE('',*,*,#138,.F.);
#185=ORIENTED_EDGE('',*,*,#139,.T.);
#186=ORIENTED_EDGE('',*,*,#112,.T.);
#187=ORIENTED_EDGE('',*,*,#139,.F.);
#188=ORIENTED_EDGE('',*,*,#137,.T.);
#189=ORIENTED_EDGE('',*,*,#138,.T.);
#190=ORIENTED_EDGE('',*,*,#140,.T.);
#191=ORIENTED_EDGE('',*,*,#126,.T.);
#192=ORIENTED_EDGE('',*,*,#120,.T.);
#193=ORIENTED_EDGE('',*,*,#125,.T.);
#194=ORIENTED_EDGE('',*,*,#122,.T.);
#195=ORIENTED_EDGE('',*,*,#124,.T.);
#196=ORIENTED_EDGE('',*,*,#140,.F.);
#197=ORIENTED_EDGE('',*,*,#115,.T.);
#198=ORIENTED_EDGE('',*,*,#116,.T.);
#199=ORIENTED_EDGE('',*,*,#141,.T.);
#200=ORIENTED_EDGE('',*,*,#113,.F.);
#201=ORIENTED_EDGE('',*,*,#141,.F.);
#202=PLANE('',#244);
#203=PLANE('',#247);
#204=PLANE('',#254);
#205=PLANE('',#256);
#206=PLANE('',#262);
#207=ADVANCED_FACE('',(#43,#41),#202,.F.);
#208=ADVANCED_FACE('',(#44),#203,.F.);
#209=ADVANCED_FACE('',(#45),#37,.T.);
#210=ADVANCED_FACE('',(#46),#204,.F.);
#211=ADVANCED_FACE('',(#47),#205,.T.);
#212=ADVANCED_FACE('',(#48),#38,.F.);
#213=ADVANCED_FACE('',(#49),#18,.F.);
#214=ADVANCED_FACE('',(#50,#42),#206,.T.);
#215=ADVANCED_FACE('',(#51),#19,.T.);
#216=ADVANCED_FACE('',(#52),#39,.T.);
#217=ADVANCED_FACE('',(#53),#20,.T.);
#218=ADVANCED_FACE('',(#54),#40,.T.);
#219=ADVANCED_FACE('',(#55),#17,.F.);
#220=ADVANCED_FACE('',(#56),#15,.T.);
#221=CLOSED_SHELL('',(#207,#208,#209,#210,#211,#212,#213,#214,#215,#216,
#217,#218,#219,#220));
#222=DERIVED_UNIT_ELEMENT(#225,1.);
#223=DERIVED_UNIT_ELEMENT(#478,-3.);
#224=DIMENSIONAL_EXPONENTS(0.,1.,0.,0.,0.,0.,0.);
#225=(
CONVERSION_BASED_UNIT('gram',#227)
MASS_UNIT()
NAMED_UNIT(#224)
);
#226=(
MASS_UNIT()
NAMED_UNIT(*)
SI_UNIT(.KILO.,.GRAM.)
);
#227=MASS_MEASURE_WITH_UNIT(MASS_MEASURE(0.001),#226);
#228=DERIVED_UNIT((#222,#223));
#229=MEASURE_REPRESENTATION_ITEM('density measure',
POSITIVE_RATIO_MEASURE(1.),#228);
#230=PROPERTY_DEFINITION_REPRESENTATION(#235,#232);
#231=PROPERTY_DEFINITION_REPRESENTATION(#236,#233);
#232=REPRESENTATION('material name',(#234),#475);
#233=REPRESENTATION('density',(#229),#475);
#234=DESCRIPTIVE_REPRESENTATION_ITEM('\X2\04220438043F043E0432044B0435\X0\',
'\X2\04220438043F043E0432044B0435\X0\');
#235=PROPERTY_DEFINITION('material property','material name',#485);
#236=PROPERTY_DEFINITION('material property','density of part',#485);
#237=DATE_TIME_ROLE('creation_date');
#238=APPLIED_DATE_AND_TIME_ASSIGNMENT(#239,#237,(#485));
#239=DATE_AND_TIME(#240,#241);
#240=CALENDAR_DATE(2023,9,10);
#241=LOCAL_TIME(11,38,46.,#242);
#242=COORDINATED_UNIVERSAL_TIME_OFFSET(0,0,.BEHIND.);
#243=AXIS2_PLACEMENT_3D('',#348,#276,#277);
#244=AXIS2_PLACEMENT_3D('',#349,#278,#279);
#245=AXIS2_PLACEMENT_3D('',#351,#280,#281);
#246=AXIS2_PLACEMENT_3D('',#353,#282,#283);
#247=AXIS2_PLACEMENT_3D('',#354,#284,#285);
#248=AXIS2_PLACEMENT_3D('',#356,#286,#287);
#249=AXIS2_PLACEMENT_3D('',#357,#288,#289);
#250=AXIS2_PLACEMENT_3D('',#360,#290,#291);
#251=AXIS2_PLACEMENT_3D('',#361,#292,#293);
#252=AXIS2_PLACEMENT_3D('',#365,#295,#296);
#253=AXIS2_PLACEMENT_3D('',#366,#297,#298);
#254=AXIS2_PLACEMENT_3D('',#367,#299,#300);
#255=AXIS2_PLACEMENT_3D('',#384,#301,#302);
#256=AXIS2_PLACEMENT_3D('',#385,#303,#304);
#257=AXIS2_PLACEMENT_3D('',#402,#305,#306);
#258=AXIS2_PLACEMENT_3D('',#403,#307,#308);
#259=AXIS2_PLACEMENT_3D('',#409,#309,#310);
#260=AXIS2_PLACEMENT_3D('',#414,#311,#312);
#261=AXIS2_PLACEMENT_3D('',#417,#314,#315);
#262=AXIS2_PLACEMENT_3D('',#418,#316,#317);
#263=AXIS2_PLACEMENT_3D('',#420,#318,#319);
#264=AXIS2_PLACEMENT_3D('',#421,#320,#321);
#265=AXIS2_PLACEMENT_3D('',#424,#322,#323);
#266=AXIS2_PLACEMENT_3D('',#426,#325,#326);
#267=AXIS2_PLACEMENT_3D('',#427,#327,#328);
#268=AXIS2_PLACEMENT_3D('',#430,#329,#330);
#269=AXIS2_PLACEMENT_3D('',#431,#331,#332);
#270=AXIS2_PLACEMENT_3D('',#433,#334,#335);
#271=AXIS2_PLACEMENT_3D('',#435,#337,#338);
#272=AXIS2_PLACEMENT_3D('',#438,#339,#340);
#273=AXIS2_PLACEMENT_3D('',#439,#341,#342);
#274=AXIS2_PLACEMENT_3D('',#471,#344,#345);
#275=AXIS2_PLACEMENT_3D('',#472,#346,#347);
#276=DIRECTION('axis',(0.,0.,1.));
#277=DIRECTION('refdir',(1.,0.,0.));
#278=DIRECTION('center_axis',(0.,1.,0.));
#279=DIRECTION('ref_axis',(0.,0.,1.));
#280=DIRECTION('center_axis',(0.,1.,0.));
#281=DIRECTION('ref_axis',(1.,0.,0.));
#282=DIRECTION('center_axis',(-8.16393477240125E-17,1.,1.53610131774313E-35));
#283=DIRECTION('ref_axis',(0.,1.53610131774313E-35,-1.));
#284=DIRECTION('center_axis',(0.,1.,0.));
#285=DIRECTION('ref_axis',(0.,0.,1.));
#286=DIRECTION('center_axis',(0.,1.,0.));
#287=DIRECTION('ref_axis',(1.,0.,0.));
#288=DIRECTION('center_axis',(0.,1.,0.));
#289=DIRECTION('ref_axis',(-1.,0.,0.));
#290=DIRECTION('center_axis',(0.,1.,0.));
#291=DIRECTION('ref_axis',(-1.,0.,0.));
#292=DIRECTION('center_axis',(0.,1.,0.));
#293=DIRECTION('ref_axis',(-1.,0.,0.));
#294=DIRECTION('',(0.,-1.,0.));
#295=DIRECTION('center_axis',(0.,1.,0.));
#296=DIRECTION('ref_axis',(1.,0.,0.));
#297=DIRECTION('center_axis',(0.,1.,0.));
#298=DIRECTION('ref_axis',(1.,0.,0.));
#299=DIRECTION('center_axis',(1.,0.,0.));
#300=DIRECTION('ref_axis',(0.,0.,-1.));
#301=DIRECTION('center_axis',(1.,0.,0.));
#302=DIRECTION('ref_axis',(0.,1.,0.));
#303=DIRECTION('center_axis',(1.,0.,0.));
#304=DIRECTION('ref_axis',(0.,0.,-1.));
#305=DIRECTION('center_axis',(-1.,0.,0.));
#306=DIRECTION('ref_axis',(0.,1.,0.));
#307=DIRECTION('center_axis',(1.,0.,0.));
#308=DIRECTION('ref_axis',(0.,-1.,-1.22464679914735E-16));
#309=DIRECTION('center_axis',(0.,-0.965652795468301,0.259835868586799));
#310=DIRECTION('ref_axis',(-0.0198041887752321,0.259784909010205,0.965463409538401));
#311=DIRECTION('center_axis',(0.,-1.,0.));
#312=DIRECTION('ref_axis',(1.,0.,0.));
#313=DIRECTION('',(-0.707106781186542,-0.707106781186553,-8.65956056235487E-17));
#314=DIRECTION('center_axis',(0.,-1.,0.));
#315=DIRECTION('ref_axis',(1.,0.,0.));
#316=DIRECTION('center_axis',(0.,-1.,0.));
#317=DIRECTION('ref_axis',(0.,0.,-1.));
#318=DIRECTION('center_axis',(0.,1.,0.));
#319=DIRECTION('ref_axis',(1.,0.,0.));
#320=DIRECTION('center_axis',(0.,1.,0.));
#321=DIRECTION('ref_axis',(1.,0.,0.));
#322=DIRECTION('center_axis',(0.,-1.,0.));
#323=DIRECTION('ref_axis',(1.,0.,0.));
#324=DIRECTION('',(0.707106781186549,-0.707106781186546,-8.65956056235495E-17));
#325=DIRECTION('center_axis',(0.,-1.,0.));
#326=DIRECTION('ref_axis',(1.,0.,0.));
#327=DIRECTION('center_axis',(0.,1.,0.));
#328=DIRECTION('ref_axis',(-1.,0.,0.));
#329=DIRECTION('center_axis',(0.,1.,0.));
#330=DIRECTION('ref_axis',(1.,0.,0.));
#331=DIRECTION('center_axis',(0.,1.,0.));
#332=DIRECTION('ref_axis',(1.,0.,0.));
#333=DIRECTION('',(0.,-1.,0.));
#334=DIRECTION('center_axis',(0.,-1.,0.));
#335=DIRECTION('ref_axis',(1.,0.,0.));
#336=DIRECTION('',(0.707106781186546,0.707106781186549,8.65956056235491E-17));
#337=DIRECTION('center_axis',(0.,1.,0.));
#338=DIRECTION('ref_axis',(-1.,0.,0.));
#339=DIRECTION('center_axis',(0.,1.,0.));
#340=DIRECTION('ref_axis',(1.,0.,0.));
#341=DIRECTION('center_axis',(0.,1.,0.));
#342=DIRECTION('ref_axis',(1.,0.,0.));
#343=DIRECTION('',(0.,-1.,0.));
#344=DIRECTION('center_axis',(1.63278695448025E-16,-1.,-3.07220263548627E-35));
#345=DIRECTION('ref_axis',(-0.00124623344476701,0.,-0.999999223450799));
#346=DIRECTION('center_axis',(-0.999999223450799,-1.63278568654085E-16,
0.00124623344476688));
#347=DIRECTION('ref_axis',(0.00124623344476688,0.,0.999999223450799));
#348=CARTESIAN_POINT('',(0.,0.,0.));
#349=CARTESIAN_POINT('Origin',(-5.43451326483632,6.476098556805,0.));
#350=CARTESIAN_POINT('',(26.5654867351637,6.476098556805,-3.91886975727153E-15));
#351=CARTESIAN_POINT('Origin',(-5.43451326483632,6.476098556805,0.));
#352=CARTESIAN_POINT('',(-5.39573522771231,6.476098556805,31.1161662157163));
#353=CARTESIAN_POINT('Origin',(-5.43451326483632,6.476098556805,6.9124559298441E-36));
#354=CARTESIAN_POINT('Origin',(-5.43451326483632,-3.02390144319501,0.));
#355=CARTESIAN_POINT('',(-31.9345132648363,-3.02390144319501,3.24531401774049E-15));
#356=CARTESIAN_POINT('Origin',(-5.43451326483632,-3.02390144319501,0.));
#357=CARTESIAN_POINT('Origin',(-5.43451326483632,6.126098556805,0.));
#358=CARTESIAN_POINT('',(-5.39874636497151,6.026098556805,28.6999777130379));
#359=CARTESIAN_POINT('',(23.2654867351637,6.026098556805,-3.5147363135529E-15));
#360=CARTESIAN_POINT('Origin',(-5.43451326483632,6.026098556805,0.));
#361=CARTESIAN_POINT('Origin',(-5.43451326483632,6.026098556805,0.));
#362=CARTESIAN_POINT('',(23.2654867351637,4.976098556805,-3.5147363135529E-15));
#363=CARTESIAN_POINT('',(23.2654867351637,6.126098556805,-3.5147363135529E-15));
#364=CARTESIAN_POINT('',(-34.1345132648363,4.976098556805,0.));
#365=CARTESIAN_POINT('Origin',(-5.43451326483632,4.976098556805,0.));
#366=CARTESIAN_POINT('Origin',(-5.43451326483632,4.976098556805,0.));
#367=CARTESIAN_POINT('Origin',(-4.43451326483632,61.9135722796961,0.));
#368=CARTESIAN_POINT('',(-4.43451326483632,11.7587192317321,-13.4904370742071));
#369=CARTESIAN_POINT('',(-4.43451326483632,11.7587192317321,13.4904370742071));
#370=CARTESIAN_POINT('Ctrl Pts',(-4.43451326483632,11.7587192317234,-13.4904370742063));
#371=CARTESIAN_POINT('Ctrl Pts',(-4.43451326483632,11.9367640191439,-11.5876045994987));
#372=CARTESIAN_POINT('Ctrl Pts',(-4.43451326483632,12.0805290201983,-9.69824301066515));
#373=CARTESIAN_POINT('Ctrl Pts',(-4.43451326483632,12.2700922751614,-6.5012334158432));
#374=CARTESIAN_POINT('Ctrl Pts',(-4.43451326483632,12.332270643168,-5.18406124293404));
#375=CARTESIAN_POINT('Ctrl Pts',(-4.43451326483632,12.424343706444,-2.57342157215372));
#376=CARTESIAN_POINT('Ctrl Pts',(-4.43451326483632,12.4606906009866,-1.2801856247648));
#377=CARTESIAN_POINT('Ctrl Pts',(-4.43451326483632,12.4606906009863,1.28018562480311));
#378=CARTESIAN_POINT('Ctrl Pts',(-4.43451326483632,12.4243437064433,2.57342157219202));
#379=CARTESIAN_POINT('Ctrl Pts',(-4.43451326483632,12.3322706431667,5.18406124297232));
#380=CARTESIAN_POINT('Ctrl Pts',(-4.43451326483632,12.2700922751598,6.50123341588146));
#381=CARTESIAN_POINT('Ctrl Pts',(-4.43451326483632,12.0805290201966,9.69824301069086));
#382=CARTESIAN_POINT('Ctrl Pts',(-4.43451326483632,11.9367640191429,11.5876045995116));
#383=CARTESIAN_POINT('Ctrl Pts',(-4.43451326483632,11.7587192317236,13.4904370742063));
#384=CARTESIAN_POINT('Origin',(-4.43451326483632,61.9135722796961,5.55111512312578E-16));
#385=CARTESIAN_POINT('Origin',(-6.43451326483632,61.9135722796961,0.));
#386=CARTESIAN_POINT('',(-6.43451326483632,11.7587192317321,13.4904370742071));
#387=CARTESIAN_POINT('',(-6.43451326483632,11.7587192317321,-13.4904370742071));
#388=CARTESIAN_POINT('Ctrl Pts',(-6.43451326483632,11.7587192317236,13.4904370742063));
#389=CARTESIAN_POINT('Ctrl Pts',(-6.43451326483632,11.9367640191429,11.5876045995112));
#390=CARTESIAN_POINT('Ctrl Pts',(-6.43451326483632,12.0805290201966,9.69824301069008));
#391=CARTESIAN_POINT('Ctrl Pts',(-6.43451326483632,12.2700922751599,6.50123341588053));
#392=CARTESIAN_POINT('Ctrl Pts',(-6.43451326483632,12.3322706431668,5.18406124297161));
#393=CARTESIAN_POINT('Ctrl Pts',(-6.43451326483632,12.4243437064434,2.57342157219169));
#394=CARTESIAN_POINT('Ctrl Pts',(-6.43451326483632,12.4606906009862,1.28018562480294));
#395=CARTESIAN_POINT('Ctrl Pts',(-6.43451326483632,12.4606906009865,-1.28018562476463));
#396=CARTESIAN_POINT('Ctrl Pts',(-6.43451326483632,12.424343706444,-2.57342157215339));
#397=CARTESIAN_POINT('Ctrl Pts',(-6.43451326483632,12.3322706431681,-5.18406124293333));
#398=CARTESIAN_POINT('Ctrl Pts',(-6.43451326483632,12.2700922751615,-6.50123341584227));
#399=CARTESIAN_POINT('Ctrl Pts',(-6.43451326483632,12.0805290201983,-9.69824301066437));
#400=CARTESIAN_POINT('Ctrl Pts',(-6.43451326483632,11.9367640191439,-11.5876045994983));
#401=CARTESIAN_POINT('Ctrl Pts',(-6.43451326483632,11.7587192317234,-13.4904370742063));
#402=CARTESIAN_POINT('Origin',(-6.43451326483632,61.9135722796961,5.55111512312578E-16));
#403=CARTESIAN_POINT('Origin',(-5.43451326483632,61.9135722796961,5.55111512312578E-16));
#404=CARTESIAN_POINT('',(-5.43451326484113,11.761292404141,-13.5000000000001));
#405=CARTESIAN_POINT('Ctrl Pts',(-6.43451326483583,11.7587192317255,-13.490437074183));
#406=CARTESIAN_POINT('Ctrl Pts',(-6.10162656221789,11.7604322084849,-13.4968055926505));
#407=CARTESIAN_POINT('Ctrl Pts',(-5.76824279246722,11.761292404141,-13.5000000000001));
#408=CARTESIAN_POINT('Ctrl Pts',(-5.43451326484113,11.761292404141,-13.5000000000001));
#409=CARTESIAN_POINT('Origin',(-5.43451326483525,-1.35895561771089,-35.260027814659));
#410=CARTESIAN_POINT('Ctrl Pts',(-5.43451326484113,11.761292404141,-13.5000000000001));
#411=CARTESIAN_POINT('Ctrl Pts',(-5.10147395362905,11.761292404141,-13.5000000000001));
#412=CARTESIAN_POINT('Ctrl Pts',(-4.7680905144612,11.760435761919,-13.4968188036359));
#413=CARTESIAN_POINT('Ctrl Pts',(-4.4345132648368,11.7587192317255,-13.490437074183));
#414=CARTESIAN_POINT('Origin',(-5.43451326483632,-3.27390144319501,0.));
#415=CARTESIAN_POINT('',(-32.4345132648363,-3.52390144319501,-3.30654635769785E-15));
#416=CARTESIAN_POINT('',(-32.1845132648363,-3.27390144319501,-3.27593018771917E-15));
#417=CARTESIAN_POINT('Origin',(-5.43451326483632,-3.52390144319501,0.));
#418=CARTESIAN_POINT('Origin',(-35.0845132648363,-3.52390144319501,0.));
#419=CARTESIAN_POINT('',(-34.1345132648363,-3.52390144319501,3.5147363135529E-15));
#420=CARTESIAN_POINT('Origin',(-5.43451326483632,-3.52390144319501,0.));
#421=CARTESIAN_POINT('Origin',(-5.43451326483632,-3.04890144319501,0.));
#422=CARTESIAN_POINT('',(24.2154867351637,-2.57390144319501,-3.6310777594719E-15));
#423=CARTESIAN_POINT('',(-35.0845132648363,-2.57390144319501,3.6310777594719E-15));
#424=CARTESIAN_POINT('Origin',(-5.43451326483632,-2.57390144319501,0.));
#425=CARTESIAN_POINT('',(-34.6095132648363,-3.04890144319501,3.5729070365124E-15));
#426=CARTESIAN_POINT('Origin',(-5.43451326483632,-2.57390144319501,0.));
#427=CARTESIAN_POINT('Origin',(-5.43451326483632,0.726098556804992,0.));
#428=CARTESIAN_POINT('',(-35.0845132648363,4.026098556805,3.6310777594719E-15));
#429=CARTESIAN_POINT('',(24.2154867351637,4.026098556805,-3.6310777594719E-15));
#430=CARTESIAN_POINT('Origin',(-5.43451326483632,4.026098556805,0.));
#431=CARTESIAN_POINT('Origin',(-5.43451326483632,4.026098556805,0.));
#432=CARTESIAN_POINT('',(24.2154867351637,0.726098556804992,-3.6310777594719E-15));
#433=CARTESIAN_POINT('Origin',(-5.43451326483632,4.501098556805,0.));
#434=CARTESIAN_POINT('',(-34.6095132648363,4.501098556805,-3.5729070365124E-15));
#435=CARTESIAN_POINT('Origin',(-5.43451326483632,7.726098556805,0.));
#436=CARTESIAN_POINT('',(-5.43451326483632,8.97609855680501,-32.));
#437=CARTESIAN_POINT('',(26.5654867351637,8.976098556805,-3.91886975727153E-15));
#438=CARTESIAN_POINT('Origin',(-5.43451326483632,8.976098556805,0.));
#439=CARTESIAN_POINT('Origin',(-5.43451326483632,8.976098556805,0.));
#440=CARTESIAN_POINT('',(26.5654867351637,7.726098556805,-3.91886975727153E-15));
#441=CARTESIAN_POINT('Ctrl Pts',(-5.43451326484104,8.97609855680496,-32.0000000000008));
#442=CARTESIAN_POINT('Ctrl Pts',(-37.4345132648605,8.97609855680393,-32.0000000000007));
#443=CARTESIAN_POINT('Ctrl Pts',(-37.4345132648605,8.9760985567999,1.87182951562285E-11));
#444=CARTESIAN_POINT('Ctrl Pts',(-37.4345132648605,8.97609855679586,32.0000000000382));
#445=CARTESIAN_POINT('Ctrl Pts',(-5.43451326484104,8.9760985567969,32.0000000000382));
#446=CARTESIAN_POINT('Ctrl Pts',(26.5654867351784,8.97609855679793,32.0000000000382));
#447=CARTESIAN_POINT('Ctrl Pts',(26.5654867351784,8.97609855680196,1.87182951562288E-11));
#448=CARTESIAN_POINT('Ctrl Pts',(26.5654867351784,8.976098556806,-32.0000000000007));
#449=CARTESIAN_POINT('Ctrl Pts',(-5.43451326484104,8.97609855680496,-32.0000000000008));
#450=CARTESIAN_POINT('Ctrl Pts',(-5.43451326484115,12.1724333518937,-16.663442965805));
#451=CARTESIAN_POINT('Ctrl Pts',(-22.0979562306652,12.1724333518932,-16.663442965805));
#452=CARTESIAN_POINT('Ctrl Pts',(-22.0979562306652,12.1724333518911,1.91180022714031E-11));
#453=CARTESIAN_POINT('Ctrl Pts',(-22.0979562306652,12.172433351889,16.6634429658432));
#454=CARTESIAN_POINT('Ctrl Pts',(-5.43451326484115,12.1724333518895,16.6634429658432));
#455=CARTESIAN_POINT('Ctrl Pts',(11.2289297009829,12.17243335189,16.6634429658432));
#456=CARTESIAN_POINT('Ctrl Pts',(11.2289297009829,12.1724333518922,1.91180022714032E-11));
#457=CARTESIAN_POINT('Ctrl Pts',(11.2289297009829,12.1724333518943,-16.663442965805));
#458=CARTESIAN_POINT('Ctrl Pts',(-5.43451326484115,12.1724333518937,-16.663442965805));
#459=CARTESIAN_POINT('Ctrl Pts',(-5.43451326484116,12.4606906009866,-0.999999999976008));
#460=CARTESIAN_POINT('Ctrl Pts',(-6.43451326483632,12.4606906009866,-0.999999999976007));
#461=CARTESIAN_POINT('Ctrl Pts',(-6.43451326483632,12.4606906009865,1.91540493318177E-11));
#462=CARTESIAN_POINT('Ctrl Pts',(-6.43451326483632,12.4606906009863,1.00000000001432));
#463=CARTESIAN_POINT('Ctrl Pts',(-5.43451326484116,12.4606906009864,1.00000000001432));
#464=CARTESIAN_POINT('Ctrl Pts',(-4.43451326484599,12.4606906009864,1.00000000001432));
#465=CARTESIAN_POINT('Ctrl Pts',(-4.43451326484599,12.4606906009865,1.91540493318178E-11));
#466=CARTESIAN_POINT('Ctrl Pts',(-4.43451326484599,12.4606906009867,-0.999999999976007));
#467=CARTESIAN_POINT('Ctrl Pts',(-5.43451326484116,12.4606906009866,-0.999999999976008));
#468=CARTESIAN_POINT('Ctrl Pts',(-5.43451326484104,8.97609855680496,-32.0000000000008));
#469=CARTESIAN_POINT('Ctrl Pts',(-5.4345132648411,10.8876343378862,-22.8281267736718));
#470=CARTESIAN_POINT('Ctrl Pts',(-5.43451326484113,11.7612924041399,-13.5000000000117));
#471=CARTESIAN_POINT('Origin',(-5.43451326483632,6.026098556805,0.));
#472=CARTESIAN_POINT('Origin',(-5.39718857316555,6.026098556805,29.9499767423514));
#473=UNCERTAINTY_MEASURE_WITH_UNIT(LENGTH_MEASURE(0.01),#477,
'DISTANCE_ACCURACY_VALUE',
'Maximum model space distance between geometric entities at asserted c
onnectivities');
#474=UNCERTAINTY_MEASURE_WITH_UNIT(LENGTH_MEASURE(0.01),#477,
'DISTANCE_ACCURACY_VALUE',
'Maximum model space distance between geometric entities at asserted c
onnectivities');
#475=(
GEOMETRIC_REPRESENTATION_CONTEXT(3)
GLOBAL_UNCERTAINTY_ASSIGNED_CONTEXT((#473))
GLOBAL_UNIT_ASSIGNED_CONTEXT((#477,#479,#480))
REPRESENTATION_CONTEXT('','3D')
);
#476=(
GEOMETRIC_REPRESENTATION_CONTEXT(3)
GLOBAL_UNCERTAINTY_ASSIGNED_CONTEXT((#474))
GLOBAL_UNIT_ASSIGNED_CONTEXT((#477,#479,#480))
REPRESENTATION_CONTEXT('','3D')
);
#477=(
LENGTH_UNIT()
NAMED_UNIT(*)
SI_UNIT(.MILLI.,.METRE.)
);
#478=(
LENGTH_UNIT()
NAMED_UNIT(*)
SI_UNIT(.CENTI.,.METRE.)
);
#479=(
NAMED_UNIT(*)
PLANE_ANGLE_UNIT()
SI_UNIT($,.RADIAN.)
);
#480=(
NAMED_UNIT(*)
SI_UNIT($,.STERADIAN.)
SOLID_ANGLE_UNIT()
);
#481=SHAPE_DEFINITION_REPRESENTATION(#482,#483);
#482=PRODUCT_DEFINITION_SHAPE('',$,#485);
#483=SHAPE_REPRESENTATION('',(#243),#475);
#484=PRODUCT_DEFINITION_CONTEXT('part definition',#489,'design');
#485=PRODUCT_DEFINITION('\X2\0414043504420430043B044C\X0\27',
'\X2\04170420\X0\1-\X2\041B0420\X0\-PG48 (zeta35039)',#486,#484);
#486=PRODUCT_DEFINITION_FORMATION('',$,#491);
#487=PRODUCT_RELATED_PRODUCT_CATEGORY('\X2\04170420\X0\1-\X2\041B0420\X0\-
PG48 (zeta35039)','\X2\04170420\X0\1-\X2\041B0420\X0\-PG48 (zeta35039)',
(#491));
#488=APPLICATION_PROTOCOL_DEFINITION('international standard',
'automotive_design',2009,#489);
#489=APPLICATION_CONTEXT(
'Core Data for Automotive Mechanical Design Process');
#490=PRODUCT_CONTEXT('part definition',#489,'mechanical');
#491=PRODUCT('\X2\0414043504420430043B044C\X0\27',
'\X2\04170420\X0\1-\X2\041B0420\X0\-PG48 (zeta35039)',$,(#490));
#492=PRESENTATION_STYLE_ASSIGNMENT((#493));
#493=SURFACE_STYLE_USAGE(.BOTH.,#496);
#494=SURFACE_STYLE_RENDERING_WITH_PROPERTIES($,#500,(#495));
#495=SURFACE_STYLE_TRANSPARENT(0.);
#496=SURFACE_SIDE_STYLE('',(#497,#494));
#497=SURFACE_STYLE_FILL_AREA(#498);
#498=FILL_AREA_STYLE('',(#499));
#499=FILL_AREA_STYLE_COLOUR('',#500);
#500=COLOUR_RGB('',0.749019607843137,0.749019607843137,0.749019607843137);
ENDSEC;
END-ISO-10303-21;
